  0
SECTION
  2
HEADER
  9
$ACADVER
  1
AC1009
  9
$INSBASE
 10
0
 20
0
 30
0
  9
$EXTMIN
 10
0
 20
0
  9
$EXTMAX
 10
210.25
 20
148.625
  9
$LIMMIN
 10
0
 20
0
  9
$LIMMAX
 10
210.25
 20
148.625
  9
$LTSCALE
 40
0.125
  0
ENDSEC
  0
SECTION
  2
TABLES
  0
TABLE
  2
LTYPE
 70
     9
  0
LTYPE
  2
CONTINUOUS
 70
    64
  3
実線
 72
    65
 73
     0
 40
0.0
  0
LTYPE
  2
DASHED1
 70
    64
  3
--  --  --  --  --  --  --  --  
 72
    65
 73
     2
 40
2.5
 49
1.25
 49
-1.25
  0
LTYPE
  2
DASHED2
 70
    64
  3
----    ----    ----    ----    
 72
    65
 73
     2
 40
5.0
 49
2.5
 49
-2.5
  0
LTYPE
  2
DASHED3
 70
    64
  3
------  ------  ------  ------  
 72
    65
 73
     2
 40
5.0
 49
3.75
 49
-1.25
  0
LTYPE
  2
CENTER1
 70
    64
  3
----- - ----- - ----- - ----- - 
 72
    65
 73
     4
 40
10.0
 49
6.25
 49
-1.25
 49
1.25
 49
-1.25
  0
LTYPE
  2
CENTER2
 70
    64
  3
----------  --  ----------  --  
 72
    65
 73
     4
 40
20.0
 49
12.5
 49
-2.5
 49
2.5
 49
-2.5
  0
LTYPE
  2
PHANTOM1
 70
    64
  3
--- - - --- - - --- - - --- - - 
 72
    65
 73
     6
 40
10.0
 49
3.25
 49
-1.25
 49
1.25
 49
-1.25
 49
1.25
 49
-1.25
  0
LTYPE
  2
PHANTOM2
 70
    64
  3
--------  -  -  --------  -  -  
 72
    65
 73
     6
 40
20.0
 49
10.0
 49
-2.5
 49
1.25
 49
-2.5
 49
1.25
 49
-2.5
  0
LTYPE
  2
DOT
 70
    64
  3
-   -   -   -   -   -   -   -   
 72
    65
 73
     2
 40
2.5
 49
0.625
 49
-1.875
  0
LTYPE
  2
DUMMY
 70
    64
  3
ダミー
 72
    65
 73
     0
 40
0.0
  0
LTYPE
  2
RAND1
 70
    64
  3
ランダム線1
 72
    65
 73
     4
 40
10.0
 49
1.0
 49
-2.0
 49
3.0
 49
-4.0
  0
LTYPE
  2
RAND2
 70
    64
  3
ランダム線2
 72
    65
 73
     4
 40
14.0
 49
2.0
 49
-3.0
 49
4.0
 49
-5.0
  0
LTYPE
  2
RAND3
 70
    64
  3
ランダム線3
 72
    65
 73
     4
 40
18.0
 49
3.0
 49
-4.0
 49
5.0
 49
-6.0
  0
LTYPE
  2
RAND4
 70
    64
  3
ランダム線4
 72
    65
 73
     4
 40
22.0
 49
4.0
 49
-5.0
 49
6.0
 49
-7.0
  0
LTYPE
  2
RAND5
 70
    64
  3
ランダム線5
 72
    65
 73
     4
 40
26.0
 49
5.0
 49
-6.0
 49
7.0
 49
-8.0
  0
LTYPE
  2
LONG1
 70
    64
  3
----------  --  ----------  --  
 72
    65
 73
     4
 40
40.0
 49
32.5
 49
-2.5
 49
2.5
 49
-2.5
  0
LTYPE
  2
LONG2
 70
    64
  3
--------  -  -  --------  -  -  
 72
    65
 73
     6
 40
40.0
 49
30.0
 49
-2.5
 49
1.25
 49
-2.5
 49
1.25
 49
-2.5
  0
LTYPE
  2
LONG3
 70
    64
  3
+++++++++++++++..+++++++++++++++
 72
    65
 73
     2
 40
40.0
 49
37.5
 49
-2.5
  0
LTYPE
  2
LONG4
 70
    64
  3
+++++++++++++++..+++++++++++++++
 72
    65
 73
     2
 40
80.0
 49
75.0
 49
-5.0
  0
LTYPE
  2
LONG5
 70
    64
  3
----------  --  ----------  --  
 72
    65
 73
     4
 40
60.0
 49
37.5
 49
-7.5
 49
7.5
 49
-7.5
  0
LTYPE
  2
dashed
 70
   64
  3
-------   -------------   ------
 72
   65
 73
    2
 40
7.5
 49
6
 49
-1.5
  0
LTYPE
  2
dashed_spaced
 70
   64
  3
----        --------        ----
 72
   65
 73
    2
 40
12
 49
6
 49
-6
  0
LTYPE
  2
long_dashed_dotted
 70
   64
  3
------------- --- --------------
 72
   65
 73
    4
 40
15.25
 49
12
 49
-1.5
 49
0.25
 49
-1.5
  0
LTYPE
  2
long_dashed_double-dotted
 70
   64
  3
----------- --- --- ------------
 72
   65
 73
    6
 40
17
 49
12
 49
-1.5
 49
0.25
 49
-1.5
 49
0.25
 49
-1.5
  0
LTYPE
  2
long_dashed_triplicate-dotted
 70
   64
  3
--------- --- --- --- ----------
 72
   65
 73
    8
 40
18.75
 49
12
 49
-1.5
 49
0.25
 49
-1.5
 49
0.25
 49
-1.5
 49
0.25
 49
-1.5
  0
LTYPE
  2
dotted
 70
   64
  3
   -       -       -       -    
 72
   65
 73
    2
 40
1.75
 49
0.25
 49
-1.5
  0
LTYPE
  2
chain
 70
   64
  3
-------------- -- --------------
 72
   65
 73
    4
 40
18.5
 49
12
 49
-1.5
 49
3.5
 49
-1.5
  0
LTYPE
  2
chain_double_dash
 70
   64
  3
------------ -- -- -------------
 72
   65
 73
    6
 40
23.5
 49
12
 49
-1.5
 49
3.5
 49
-1.5
 49
3.5
 49
-1.5
  0
LTYPE
  2
dashed_dotted
 70
   64
  3
-----------     -     ----------
 72
   65
 73
    4
 40
9.25
 49
6
 49
-1.5
 49
0.25
 49
-1.5
  0
LTYPE
  2
double-dashed_dotted
 70
   64
  3
------   -----------   -   -----
 72
   65
 73
    6
 40
16.75
 49
6
 49
-1.5
 49
6
 49
-1.5
 49
0.25
 49
-1.5
  0
LTYPE
  2
dashed_double-dotted
 70
   64
  3
---------    -    -    ---------
 72
   65
 73
    6
 40
11
 49
6
 49
-1.5
 49
0.25
 49
-1.5
 49
0.25
 49
-1.5
  0
LTYPE
  2
double-dashed_double-dotted
 70
   64
  3
-----   ---------   -   -   ----
 72
   65
 73
    8
 40
18.5
 49
6
 49
-1.5
 49
6
 49
-1.5
 49
0.25
 49
-1.5
 49
0.25
 49
-1.5
  0
LTYPE
  2
dashed_triplicate-dotted
 70
   64
  3
-------    -    -    -    ------
 72
   65
 73
    8
 40
12.75
 49
6
 49
-1.5
 49
0.25
 49
-1.5
 49
0.25
 49
-1.5
 49
0.25
 49
-1.5
  0
LTYPE
  2
double-dashed_triplicate-dotted
 70
   64
  3
-----  ---------  -  -  -  -----
 72
   65
 73
   10
 40
20.25
 49
6
 49
-1.5
 49
6
 49
-1.5
 49
0.25
 49
-1.5
 49
0.25
 49
-1.5
 49
0.25
 49
-1.5
  0
LTYPE
  2
undefined
 70
   64
  3
--------------------------------
 72
   65
 73
    0
 40
0
  0
LTYPE
  2
DASH
 70
   64
  3
----        --------        ----
 72
   65
 73
    2
 40
2
 49
1
 49
-1
  0
LTYPE
  2
DOT_18
 70
   64
  3
-               -               
 72
   65
 73
    2
 40
0.51
 49
0.01
 49
-0.5
  0
LTYPE
  2
DASHDOT
 70
   64
  3
--------        -        -------
 72
   65
 73
    4
 40
2.0099999999999998
 49
1
 49
-0.5
 49
0.01
 49
-0.5
  0
LTYPE
  2
DASHDOTDOT
 70
   64
  3
-------      -     -      ------
 72
   65
 73
    6
 40
2.02
 49
1
 49
-0.3499999999999999
 49
0.01
 49
-0.2999999999999999
 49
0.01
 49
-0.3499999999999999
  0
ENDTAB
  0
TABLE
  2
STYLE
  5
3
100
AcDbSymbolTable
 70
     1
  0
STYLE
  5
10
100
AcDbSymbolTableRecord
100
AcDbTextStyleTableRecord
  2
STANDARD
 70
     0
 40
0.0
 41
1.0
 50
0.0
 71
     0
 42
0.2
  3
txt
  4
bigfont.shx
  0
STYLE
  5
26
100
AcDbSymbolTableRecord
100
AcDbTextStyleTableRecord
  2
TATEGAKI
 70
    68
 40
0.0
 41
1.0
 50
0.0
 71
     0
 42
1.0
  3
txt
  4
bigfont.shx
  0
ENDTAB
  0
TABLE
  2
LAYER
 70
    4
  0
LAYER
  2
_0-0_0
 70
   64
 62
    7
  6
CONTINUOUS
  0
LAYER
  2
_0-2_Bend
 70
   64
 62
    7
  6
CONTINUOUS
  0
LAYER
  2
_0-5_MBend
 70
   64
 62
    7
  6
CONTINUOUS
  0
LAYER
  2
ADD_LINE
 70
   64
 62
    7
  6
CONTINUOUS
  0
ENDTAB
  0
ENDSEC
  0
SECTION
  2
BLOCKS
  0
ENDSEC
  0
SECTION
  2
ENTITIES
  0
CIRCLE
  8
_0-0_0
  6
CONTINUOUS
 62
   18
 10
133.45924194638582
 20
47.272500000000015
 40
4
  0
CIRCLE
  8
_0-0_0
  6
CONTINUOUS
 62
   18
 10
133.45924194638582
 20
82.272500000000008
 40
4.0000000000000142
  0
CIRCLE
  8
_0-0_0
  6
CONTINUOUS
 62
   18
 10
176.7592418987021
 20
34.772500000000022
 40
2
  0
CIRCLE
  8
_0-0_0
  6
CONTINUOUS
 62
   18
 10
176.75924189870216
 20
94.772500000000036
 40
1.999999999999972
  0
CIRCLE
  8
_0-0_0
  6
CONTINUOUS
 62
   18
 10
15.670000000000002
 20
34.772500000000015
 40
1.999999999999992
  0
CIRCLE
  8
_0-0_0
  6
CONTINUOUS
 62
   18
 10
15.67000000000003
 20
94.772500000000036
 40
1.9999999999999929
  0
LINE
  8
_0-0_0
  6
CONTINUOUS
 62
   18
 10
107.84024057981522
 20
98.272500000000008
 11
78.840240579815188
 21
98.272500000000036
  0
LINE
  8
_0-0_0
  6
CONTINUOUS
 62
   18
 10
78.840240579815188
 20
98.272500000000036
 11
78.84024057981523
 21
31.272500000000022
  0
LINE
  8
_0-0_0
  6
CONTINUOUS
 62
   18
 10
78.84024057981523
 20
31.272500000000022
 11
107.84024057981524
 21
31.272500000000022
  0
LINE
  8
_0-0_0
  6
CONTINUOUS
 62
   18
 10
107.84024057981524
 20
31.272500000000022
 11
107.84024057981522
 21
98.272500000000008
  0
CIRCLE
  8
_0-0_0
  6
CONTINUOUS
 62
   18
 10
93.340240579815244
 20
24.772500000000022
 40
1.999999999999986
  0
CIRCLE
  8
_0-0_0
  6
CONTINUOUS
 62
   18
 10
93.340240579815188
 20
104.77249999999998
 40
1.999999999999972
  0
LINE
  8
_0-5_MBend
  6
DASHDOTDOT
 62
   18
 10
57.645999976158166
 20
19.772500000000008
 11
57.64599997615818
 21
109.77249999999998
  0
LINE
  8
_0-5_MBend
  6
DASHDOTDOT
 62
   18
 10
147.60924192254396
 20
109.77249999999998
 11
147.60924192254396
 21
19.772500000000008
  0
LINE
  8
_0-2_Bend
  6
DOT_18
 62
   18
 10
118.39974126310048
 20
109.77249999999998
 11
118.39974126310054
 21
19.772500000000022
  0
LINE
  8
_0-5_MBend
  6
DASHDOTDOT
 62
   18
 10
68.855500635601615
 20
19.772500000000022
 11
68.855500635601601
 21
109.77249999999998
  0
ARC
  8
_0-0_0
  6
CONTINUOUS
 62
   18
 10
180.75924189870213
 20
20.772500000000029
 40
1.0000000000000109
 50
270.00000000000063
 51
0.0000000000005979
  0
LINE
  8
_0-0_0
  6
CONTINUOUS
 62
   18
 10
181.75924189870216
 20
20.772500000000036
 11
181.75924189870216
 21
108.77250000000004
  0
ARC
  8
_0-0_0
  6
CONTINUOUS
 62
   18
 10
180.75924189870204
 20
108.77249999999992
 40
1.0000000000001061
 50
0.0000000000068983
 51
89.999999999995552
  0
LINE
  8
_0-0_0
  6
CONTINUOUS
 62
   18
 10
180.7592418987021
 20
109.77250000000004
 11
11.670000000000016
 21
109.77249999999998
  0
ARC
  8
_0-0_0
  6
CONTINUOUS
 62
   18
 10
11.669999999999973
 20
108.77250000000002
 40
0.9999999999999635
 50
89.999999999997911
 51
180.00000000000045
  0
LINE
  8
_0-0_0
  6
CONTINUOUS
 62
   18
 10
10.670000000000016
 20
108.77250000000001
 11
10.670000000000002
 21
20.772500000000015
  0
ARC
  8
_0-0_0
  6
CONTINUOUS
 62
   18
 10
11.670000000000002
 20
20.772500000000015
 40
1
 50
180
 51
270
  0
LINE
  8
_0-0_0
  6
CONTINUOUS
 62
   18
 10
11.670000000000002
 20
19.772500000000015
 11
180.75924189870216
 21
19.772500000000015
  0
ENDSEC
  0
EOF
