  0
SECTION
  2
HEADER
  9
$ACADVER
  1
AC1009
  9
$INSBASE
 10
0
 20
0
 30
0
  9
$EXTMIN
 10
0
 20
0
  9
$EXTMAX
 10
1189
 20
841
  9
$LIMMIN
 10
0
 20
0
  9
$LIMMAX
 10
1189
 20
841
  9
$LTSCALE
 40
1
  0
ENDSEC
  0
SECTION
  2
TABLES
  0
TABLE
  2
LTYPE
 70
     9
  0
LTYPE
  2
CONTINUOUS
 70
    64
  3
実線
 72
    65
 73
     0
 40
0.0
  0
LTYPE
  2
DASHED1
 70
    64
  3
--  --  --  --  --  --  --  --  
 72
    65
 73
     2
 40
2.5
 49
1.25
 49
-1.25
  0
LTYPE
  2
DASHED2
 70
    64
  3
----    ----    ----    ----    
 72
    65
 73
     2
 40
5.0
 49
2.5
 49
-2.5
  0
LTYPE
  2
DASHED3
 70
    64
  3
------  ------  ------  ------  
 72
    65
 73
     2
 40
5.0
 49
3.75
 49
-1.25
  0
LTYPE
  2
CENTER1
 70
    64
  3
----- - ----- - ----- - ----- - 
 72
    65
 73
     4
 40
10.0
 49
6.25
 49
-1.25
 49
1.25
 49
-1.25
  0
LTYPE
  2
CENTER2
 70
    64
  3
----------  --  ----------  --  
 72
    65
 73
     4
 40
20.0
 49
12.5
 49
-2.5
 49
2.5
 49
-2.5
  0
LTYPE
  2
PHANTOM1
 70
    64
  3
--- - - --- - - --- - - --- - - 
 72
    65
 73
     6
 40
10.0
 49
3.25
 49
-1.25
 49
1.25
 49
-1.25
 49
1.25
 49
-1.25
  0
LTYPE
  2
PHANTOM2
 70
    64
  3
--------  -  -  --------  -  -  
 72
    65
 73
     6
 40
20.0
 49
10.0
 49
-2.5
 49
1.25
 49
-2.5
 49
1.25
 49
-2.5
  0
LTYPE
  2
DOT
 70
    64
  3
-   -   -   -   -   -   -   -   
 72
    65
 73
     2
 40
2.5
 49
0.625
 49
-1.875
  0
LTYPE
  2
DUMMY
 70
    64
  3
ダミー
 72
    65
 73
     0
 40
0.0
  0
LTYPE
  2
RAND1
 70
    64
  3
ランダム線1
 72
    65
 73
     4
 40
10.0
 49
1.0
 49
-2.0
 49
3.0
 49
-4.0
  0
LTYPE
  2
RAND2
 70
    64
  3
ランダム線2
 72
    65
 73
     4
 40
14.0
 49
2.0
 49
-3.0
 49
4.0
 49
-5.0
  0
LTYPE
  2
RAND3
 70
    64
  3
ランダム線3
 72
    65
 73
     4
 40
18.0
 49
3.0
 49
-4.0
 49
5.0
 49
-6.0
  0
LTYPE
  2
RAND4
 70
    64
  3
ランダム線4
 72
    65
 73
     4
 40
22.0
 49
4.0
 49
-5.0
 49
6.0
 49
-7.0
  0
LTYPE
  2
RAND5
 70
    64
  3
ランダム線5
 72
    65
 73
     4
 40
26.0
 49
5.0
 49
-6.0
 49
7.0
 49
-8.0
  0
LTYPE
  2
LONG1
 70
    64
  3
----------  --  ----------  --  
 72
    65
 73
     4
 40
40.0
 49
32.5
 49
-2.5
 49
2.5
 49
-2.5
  0
LTYPE
  2
LONG2
 70
    64
  3
--------  -  -  --------  -  -  
 72
    65
 73
     6
 40
40.0
 49
30.0
 49
-2.5
 49
1.25
 49
-2.5
 49
1.25
 49
-2.5
  0
LTYPE
  2
LONG3
 70
    64
  3
+++++++++++++++..+++++++++++++++
 72
    65
 73
     2
 40
40.0
 49
37.5
 49
-2.5
  0
LTYPE
  2
LONG4
 70
    64
  3
+++++++++++++++..+++++++++++++++
 72
    65
 73
     2
 40
80.0
 49
75.0
 49
-5.0
  0
LTYPE
  2
LONG5
 70
    64
  3
----------  --  ----------  --  
 72
    65
 73
     4
 40
60.0
 49
37.5
 49
-7.5
 49
7.5
 49
-7.5
  0
LTYPE
  2
dashed
 70
   64
  3
-------   -------------   ------
 72
   65
 73
    2
 40
7.5
 49
6
 49
-1.5
  0
LTYPE
  2
dashed_spaced
 70
   64
  3
----        --------        ----
 72
   65
 73
    2
 40
12
 49
6
 49
-6
  0
LTYPE
  2
long_dashed_dotted
 70
   64
  3
------------- --- --------------
 72
   65
 73
    4
 40
15.25
 49
12
 49
-1.5
 49
0.25
 49
-1.5
  0
LTYPE
  2
long_dashed_double-dotted
 70
   64
  3
----------- --- --- ------------
 72
   65
 73
    6
 40
17
 49
12
 49
-1.5
 49
0.25
 49
-1.5
 49
0.25
 49
-1.5
  0
LTYPE
  2
long_dashed_triplicate-dotted
 70
   64
  3
--------- --- --- --- ----------
 72
   65
 73
    8
 40
18.75
 49
12
 49
-1.5
 49
0.25
 49
-1.5
 49
0.25
 49
-1.5
 49
0.25
 49
-1.5
  0
LTYPE
  2
dotted
 70
   64
  3
   -       -       -       -    
 72
   65
 73
    2
 40
1.75
 49
0.25
 49
-1.5
  0
LTYPE
  2
chain
 70
   64
  3
-------------- -- --------------
 72
   65
 73
    4
 40
18.5
 49
12
 49
-1.5
 49
3.5
 49
-1.5
  0
LTYPE
  2
chain_double_dash
 70
   64
  3
------------ -- -- -------------
 72
   65
 73
    6
 40
23.5
 49
12
 49
-1.5
 49
3.5
 49
-1.5
 49
3.5
 49
-1.5
  0
LTYPE
  2
dashed_dotted
 70
   64
  3
-----------     -     ----------
 72
   65
 73
    4
 40
9.25
 49
6
 49
-1.5
 49
0.25
 49
-1.5
  0
LTYPE
  2
double-dashed_dotted
 70
   64
  3
------   -----------   -   -----
 72
   65
 73
    6
 40
16.75
 49
6
 49
-1.5
 49
6
 49
-1.5
 49
0.25
 49
-1.5
  0
LTYPE
  2
dashed_double-dotted
 70
   64
  3
---------    -    -    ---------
 72
   65
 73
    6
 40
11
 49
6
 49
-1.5
 49
0.25
 49
-1.5
 49
0.25
 49
-1.5
  0
LTYPE
  2
double-dashed_double-dotted
 70
   64
  3
-----   ---------   -   -   ----
 72
   65
 73
    8
 40
18.5
 49
6
 49
-1.5
 49
6
 49
-1.5
 49
0.25
 49
-1.5
 49
0.25
 49
-1.5
  0
LTYPE
  2
dashed_triplicate-dotted
 70
   64
  3
-------    -    -    -    ------
 72
   65
 73
    8
 40
12.75
 49
6
 49
-1.5
 49
0.25
 49
-1.5
 49
0.25
 49
-1.5
 49
0.25
 49
-1.5
  0
LTYPE
  2
double-dashed_triplicate-dotted
 70
   64
  3
-----  ---------  -  -  -  -----
 72
   65
 73
   10
 40
20.25
 49
6
 49
-1.5
 49
6
 49
-1.5
 49
0.25
 49
-1.5
 49
0.25
 49
-1.5
 49
0.25
 49
-1.5
  0
LTYPE
  2
undefined
 70
   64
  3
--------------------------------
 72
   65
 73
    0
 40
0
  0
ENDTAB
  0
TABLE
  2
STYLE
  5
3
100
AcDbSymbolTable
 70
     1
  0
STYLE
  5
10
100
AcDbSymbolTableRecord
100
AcDbTextStyleTableRecord
  2
STANDARD
 70
     0
 40
0.0
 41
1.0
 50
0.0
 71
     0
 42
0.2
  3
txt
  4
bigfont.shx
  0
STYLE
  5
26
100
AcDbSymbolTableRecord
100
AcDbTextStyleTableRecord
  2
TATEGAKI
 70
    68
 40
0.0
 41
1.0
 50
0.0
 71
     0
 42
1.0
  3
txt
  4
bigfont.shx
  0
ENDTAB
  0
TABLE
  2
LAYER
 70
    2
  0
LAYER
  2
_0-0_
 70
   64
 62
    7
  6
CONTINUOUS
  0
LAYER
  2
ADD_LINE
 70
   64
 62
    7
  6
CONTINUOUS
  0
ENDTAB
  0
ENDSEC
  0
SECTION
  2
BLOCKS
  0
ENDSEC
  0
SECTION
  2
ENTITIES
  0
LINE
  8
_0-0_
  6
CONTINUOUS
 62
    7
 10
23.5614871700202
 20
1183.0395437109023
 11
23.639033435503961
 21
1244.2581513589055
  0
CIRCLE
  8
_0-0_
  6
CONTINUOUS
 62
    7
 10
25.863173068664082
 20
1149.6321596666871
 40
1.5
  0
CIRCLE
  8
_0-0_
  6
CONTINUOUS
 62
    7
 10
-9.5307257160127392
 20
1156.5047613724496
 40
1.5
  0
ARC
  8
_0-0_
  6
CONTINUOUS
 62
    7
 10
-30.732607372491884
 20
1138.3738909185536
 40
10
 50
28.981595288887949
 51
167.1712803931097
  0
ARC
  8
_0-0_
  6
CONTINUOUS
 62
    7
 10
-4.4893455548838119
 20
1152.9097503418034
 40
20
 50
208.98159528888795
 51
257.17128039310944
  0
LINE
  8
_0-0_
  6
CONTINUOUS
 62
    7
 10
31.697437995925156
 20
1124.1572204222791
 11
-8.9300908556501781
 21
1133.4089867369153
  0
ARC
  8
_0-0_
  6
CONTINUOUS
 62
    7
 10
32.141512526001748
 20
1126.1072967827679
 40
2
 50
257.17128039310944
 51
336.12237326893546
  0
LINE
  8
_0-0_
  6
CONTINUOUS
 62
    7
 10
33.970336702270174
 20
1125.2977276799138
 11
38.501040316075887
 21
1135.5326295248856
  0
ARC
  8
_0-0_
  6
CONTINUOUS
 62
    7
 10
36.501040316075887
 20
1165.0813812259087
 40
2
 50
0
 51
81.86989764584402
  0
LINE
  8
_0-0_
  6
CONTINUOUS
 62
    7
 10
38.501040316075887
 20
1165.0813812259087
 11
38.501040316075887
 21
1135.5326295248856
  0
LINE
  8
_0-0_
  6
CONTINUOUS
 62
    7
 10
36.783883028550463
 20
1167.0612802132309
 11
-5.9709226892018705
 21
1173.1691096014813
  0
ARC
  8
_0-0_
  6
CONTINUOUS
 62
    7
 10
-5.2638159080153173
 20
1178.1188570697871
 40
5
 50
177.16685436374297
 51
261.86989764584399
  0
LINE
  8
_0-0_
  6
CONTINUOUS
 62
    7
 10
-8.8294917169225755
 20
1207.2257388644937
 11
-10.257704460994546
 21
1178.3659949269097
  0
LINE
  8
_0-0_
  6
CONTINUOUS
 62
    7
 10
-25.261773019860811
 20
1226.0923183759573
 11
-24.028706662722811
 21
1225.8996517576547
  0
ARC
  8
_0-0_
  6
CONTINUOUS
 62
    7
 10
-26.807490507647799
 20
1208.1154351501348
 40
18
 50
357.16685436374308
 51
81.119340849479912
  0
ARC
  8
_0-0_
  6
CONTINUOUS
 62
    7
 10
-22.482989174935824
 20
1243.8765349834773
 40
18
 50
180
 51
261.11934084947978
  0
LINE
  8
_0-0_
  6
CONTINUOUS
 62
    7
 10
-38.032096159429557
 20
1223.0270142600459
 11
-26.578328103546482
 21
1221.237363001314
  0
ARC
  8
_0-0_
  6
CONTINUOUS
 62
    7
 10
-28.89398130765062
 20
1206.4171824950477
 40
15
 50
357.16685436374308
 51
81.119340849479912
  0
LINE
  8
_0-0_
  6
CONTINUOUS
 62
    7
 10
-16.822594663710788
 20
1185.7867867622226
 11
-13.912315648713047
 21
1205.6757689236799
  0
ARC
  8
_0-0_
  6
CONTINUOUS
 62
    7
 10
-27.70669018277647
 20
1187.3794150088181
 40
11
 50
263.82707851324358
 51
351.67520633435635
  0
LINE
  8
_0-0_
  6
CONTINUOUS
 62
    7
 10
-21.904778054823282
 20
1202.0761745806474
 11
-21.904778054823282
 21
1203.1272606743337
  0
ARC
  8
_0-0_
  6
CONTINUOUS
 62
    7
 10
-23.904778054823282
 20
1202.0761745806474
 40
2
 50
287.93679012620527
 51
0
  0
LINE
  8
_0-0_
  6
CONTINUOUS
 62
    7
 10
-29.723637916587222
 20
1198.090434882376
 11
-23.288842891684794
 21
1200.1733808780066
  0
ARC
  8
_0-0_
  6
CONTINUOUS
 62
    7
 10
-23.904778054823282
 20
1203.1272606743337
 40
2
 50
0
 51
107.93679012620558
  0
LINE
  8
_0-0_
  6
CONTINUOUS
 62
    7
 10
-24.520713217961884
 20
1205.0300543769745
 11
-26.658219725710637
 21
1204.3381425750106
  0
ARC
  8
_0-0_
  6
CONTINUOUS
 62
    7
 10
-31.277733449249808
 20
1218.6090953448165
 40
15
 50
180
 51
287.93679012620538
  0
ARC
  8
_0-0_
  6
CONTINUOUS
 62
    7
 10
-20.48461046950888
 20
1169.5485293427641
 40
30
 50
107.93679012620532
 51
139.73497105164483
  0
CIRCLE
  8
_0-0_
  6
CONTINUOUS
 62
    7
 10
-55.482989174935824
 20
1326.1468517754158
 40
1.5
  0
CIRCLE
  8
_0-0_
  6
CONTINUOUS
 62
    7
 10
-55.482989174935824
 20
1276.6629291951949
 40
1.5
  0
CIRCLE
  8
_0-0_
  6
CONTINUOUS
 62
    7
 10
-55.482989174935824
 20
1149.1116340426015
 40
1.5
  0
LINE
  8
_0-0_
  6
CONTINUOUS
 62
    7
 10
-65.482989174935824
 20
1188.2874277159483
 11
-65.482989174935824
 21
1185.2605552098207
  0
LINE
  8
_0-0_
  6
CONTINUOUS
 62
    7
 10
-65.482989174935824
 20
1151.7991968175029
 11
-65.482989174935824
 21
1146.538238164328
  0
LINE
  8
_0-0_
  6
CONTINUOUS
 62
    7
 10
-46.277733449249808
 20
1218.6090953448165
 11
-51.459550906671893
 21
1228.6906477809807
  0
LINE
  8
_0-0_
  6
CONTINUOUS
 62
    7
 10
-51.459550906671893
 20
1228.6906477809807
 11
-54.665284379439981
 21
1228.5205089396422
  0
LINE
  8
_0-0_
  6
CONTINUOUS
 62
    7
 10
-54.665284379439981
 20
1209.9636107625604
 11
-54.665284379439981
 21
1228.5205089396422
  0
LINE
  8
_0-0_
  6
CONTINUOUS
 62
    7
 10
-43.37649933596515
 20
1188.9382540475096
 11
-50.119396125244975
 21
1180.9774579924524
  0
CIRCLE
  8
_0-0_
  6
CONTINUOUS
 62
    7
 10
-55.665284379439981
 20
1198.1102373451679
 40
1.5
  0
ARC
  8
_0-0_
  6
CONTINUOUS
 62
    7
 10
-37.260211758061473
 20
1227.9670744288014
 40
5
 50
213.5912817971182
 51
261.11934084947922
  0
LINE
  8
_0-0_
  6
CONTINUOUS
 62
    7
 10
-41.425238937411223
 20
1225.200750406696
 11
-53.218280704396307
 21
1242.9565661008082
  0
ARC
  8
_0-0_
  6
CONTINUOUS
 62
    7
 10
-65.482989174935824
 20
1249.5660424382654
 40
5
 50
180
 51
262.71104767638991
  0
LINE
  8
_0-0_
  6
CONTINUOUS
 62
    7
 10
-66.117355928999814
 20
1244.6064478155831
 11
-53.218280704396307
 21
1242.9565661008082
  0
ARC
  8
_0-0_
  6
CONTINUOUS
 62
    7
 10
-41.982989174935824
 20
1366.5994048137291
 40
1.5
 50
0
 51
90
  0
LINE
  8
_0-0_
  6
CONTINUOUS
 62
    7
 10
-41.982989174935824
 20
1368.0994048137291
 11
-59.482989174935824
 21
1368.0994048137291
  0
LINE
  8
_0-0_
  6
CONTINUOUS
 62
    7
 10
-40.482989174935824
 20
1366.5994048137291
 11
-40.482989174935824
 21
1243.8765349834773
  0
ARC
  8
_0-0_
  6
CONTINUOUS
 62
    7
 10
-59.482989174935824
 20
1363.0994048137291
 40
5
 50
90
 51
180.00000000000003
  0
LINE
  8
_0-0_
  6
CONTINUOUS
 62
    7
 10
-67.482989174935824
 20
1363.0994048137291
 11
-64.482989174935824
 21
1363.0994048137291
  0
LINE
  8
_0-0_
  6
CONTINUOUS
 62
    7
 10
-40.482989174935824
 20
1132.9692965535878
 11
-40.482989174935824
 21
1140.5942635689369
  0
ARC
  8
_0-0_
  6
CONTINUOUS
 62
    7
 10
-42.482989174935824
 20
1132.9692965535878
 40
2
 50
256.29181596287395
 51
0.0000000000000127
  0
LINE
  8
_0-0_
  6
CONTINUOUS
 62
    7
 10
-68.956943011265821
 20
1137.3683174208145
 11
-42.956943011265821
 21
1131.0262659925754
  0
ARC
  8
_0-0_
  6
CONTINUOUS
 62
    7
 10
-68.482989174935824
 20
1139.3113479818269
 40
2
 50
180
 51
256.2918159628739
  0
ARC
  8
_0-0_
  6
CONTINUOUS
 62
    7
 10
116.1178322235512
 20
1398.5773932002887
 40
2
 50
0
 51
76.291815962873898
  0
LINE
  8
_0-0_
  6
CONTINUOUS
 62
    7
 10
116.59178605988131
 20
1400.5204237613011
 11
90.591786059881315
 21
1406.8624751895402
  0
ARC
  8
_0-0_
  6
CONTINUOUS
 62
    7
 10
90.117832223551204
 20
1404.9194446285278
 40
2
 50
76.291815962873969
 51
180
  0
LINE
  8
_0-0_
  6
CONTINUOUS
 62
    7
 10
88.117832223551204
 20
1404.9194446285278
 11
88.117832223551204
 21
1397.2944776131787
  0
ARC
  8
_0-0_
  6
CONTINUOUS
 62
    7
 10
78.367450421107151
 20
1399.514850263562
 40
10
 50
208.98159528888795
 51
347.17128039310967
  0
ARC
  8
_0-0_
  6
CONTINUOUS
 62
    7
 10
52.124188603499078
 20
1384.9789908403125
 40
20
 50
28.981595288887949
 51
77.171280393109441
  0
ARC
  8
_0-0_
  6
CONTINUOUS
 62
    7
 10
52.898658956630698
 20
1359.7698841123286
 40
5
 50
357.16685436374291
 51
81.869897645843949
  0
ARC
  8
_0-0_
  6
CONTINUOUS
 62
    7
 10
76.528824356266
 20
1331.4715586870682
 40
15
 50
177.166854363743
 51
261.11934084947984
  0
LINE
  8
_0-0_
  6
CONTINUOUS
 62
    7
 10
56.464334765537842
 20
1330.6630023176219
 11
57.892547509609813
 21
1359.5227462552059
  0
ARC
  8
_0-0_
  6
CONTINUOUS
 62
    7
 10
74.442333556263065
 20
1329.7733060319808
 40
18
 50
177.166854363743
 51
261.11934084947984
  0
LINE
  8
_0-0_
  6
CONTINUOUS
 62
    7
 10
72.896616068476078
 20
1311.7964228061583
 11
71.663549711338192
 21
1311.9890894244611
  0
ARC
  8
_0-0_
  6
CONTINUOUS
 62
    7
 10
70.117832223551204
 20
1294.0122061986383
 40
18
 50
0
 51
81.119340849479784
  0
LINE
  8
_0-0_
  6
CONTINUOUS
 62
    7
 10
64.457437712326055
 20
1352.101954419893
 11
61.547158697328314
 21
1332.2129722584357
  0
LINE
  8
_0-0_
  6
CONTINUOUS
 62
    7
 10
115.1178322235512
 20
1174.7893363683866
 11
112.1178322235512
 21
1174.7893363683866
  0
ARC
  8
_0-0_
  6
CONTINUOUS
 62
    7
 10
107.1178322235512
 20
1174.7893363683866
 40
5
 50
270
 51
0
  0
LINE
  8
_0-0_
  6
CONTINUOUS
 62
    7
 10
88.117832223551204
 20
1171.2893363683866
 11
88.117832223551204
 21
1294.0122061986383
  0
LINE
  8
_0-0_
  6
CONTINUOUS
 62
    7
 10
89.617832223551204
 20
1169.7893363683866
 11
107.1178322235512
 21
1169.7893363683866
  0
ARC
  8
_0-0_
  6
CONTINUOUS
 62
    7
 10
89.617832223551204
 20
1171.2893363683866
 40
1.5
 50
180
 51
270
  0
ARC
  8
_0-0_
  6
CONTINUOUS
 62
    7
 10
75.34153323139185
 20
1350.5093261732975
 40
11
 50
83.827078513243706
 51
171.67520633435649
  0
LINE
  8
_0-0_
  6
CONTINUOUS
 62
    7
 10
113.75219897761508
 20
1293.2822933665325
 11
100.85312375301169
 21
1294.9321750813074
  0
ARC
  8
_0-0_
  6
CONTINUOUS
 62
    7
 10
113.1178322235512
 20
1288.3226987438502
 40
5
 50
0
 51
82.71104767638991
  0
LINE
  8
_0-0_
  6
CONTINUOUS
 62
    7
 10
85.666939208044823
 20
1314.8617269220697
 11
74.213171152161863
 21
1316.6513781808017
  0
LINE
  8
_0-0_
  6
CONTINUOUS
 62
    7
 10
89.060081986026489
 20
1312.6879907754196
 11
100.85312375301169
 21
1294.9321750813074
  0
ARC
  8
_0-0_
  6
CONTINUOUS
 62
    7
 10
84.895054806676853
 20
1309.9216667533142
 40
5
 50
33.591281797118192
 51
81.119340849479215
  0
CIRCLE
  8
_0-0_
  6
CONTINUOUS
 62
    7
 10
103.30012742805525
 20
1339.7785038369477
 40
1.5
  0
ARC
  8
_0-0_
  6
CONTINUOUS
 62
    7
 10
78.912576497865075
 20
1319.2796458372991
 40
15
 50
0
 51
107.93679012620537
  0
LINE
  8
_0-0_
  6
CONTINUOUS
 62
    7
 10
72.15555626657715
 20
1332.8586868051411
 11
74.293062774326017
 21
1333.550598607105
  0
ARC
  8
_0-0_
  6
CONTINUOUS
 62
    7
 10
71.539621103438662
 20
1334.7614805077819
 40
2
 50
180
 51
287.93679012620555
  0
LINE
  8
_0-0_
  6
CONTINUOUS
 62
    7
 10
69.539621103438662
 20
1335.8125666014682
 11
69.539621103438662
 21
1334.7614805077819
  0
ARC
  8
_0-0_
  6
CONTINUOUS
 62
    7
 10
71.539621103438662
 20
1335.8125666014682
 40
2
 50
107.93679012620524
 51
180.00000000000003
  0
LINE
  8
_0-0_
  6
CONTINUOUS
 62
    7
 10
91.01134238458053
 20
1348.950487134606
 11
97.754239173860356
 21
1356.9112831896632
  0
LINE
  8
_0-0_
  6
CONTINUOUS
 62
    7
 10
77.358480965202489
 20
1339.7983062997396
 11
70.923685940300174
 21
1337.715360304109
  0
ARC
  8
_0-0_
  6
CONTINUOUS
 62
    7
 10
68.11945351812426
 20
1368.3402118393515
 40
30
 50
287.93679012620532
 51
319.73497105164483
  0
LINE
  8
_0-0_
  6
CONTINUOUS
 62
    7
 10
102.30012742805525
 20
1327.9251304195552
 11
102.30012742805525
 21
1309.3682322424734
  0
LINE
  8
_0-0_
  6
CONTINUOUS
 62
    7
 10
99.094393955287273
 20
1309.1980934011349
 11
102.30012742805525
 21
1309.3682322424734
  0
LINE
  8
_0-0_
  6
CONTINUOUS
 62
    7
 10
93.912576497865189
 20
1319.2796458372991
 11
99.094393955287273
 21
1309.1980934011349
  0
LINE
  8
_0-0_
  6
CONTINUOUS
 62
    7
 10
113.1178322235512
 20
1386.0895443646129
 11
113.1178322235512
 21
1391.3505030177876
  0
LINE
  8
_0-0_
  6
CONTINUOUS
 62
    7
 10
113.1178322235512
 20
1349.6013134661673
 11
113.1178322235512
 21
1352.6281859722951
  0
CIRCLE
  8
_0-0_
  6
CONTINUOUS
 62
    7
 10
103.1178322235512
 20
1388.7771071395141
 40
1.5
  0
CIRCLE
  8
_0-0_
  6
CONTINUOUS
 62
    7
 10
103.1178322235512
 20
1261.2258119869207
 40
1.5
  0
CIRCLE
  8
_0-0_
  6
CONTINUOUS
 62
    7
 10
103.1178322235512
 20
1211.7418894066998
 40
1.5
  0
LINE
  8
_0-0_
  6
CONTINUOUS
 62
    7
 10
10.850960020064804
 20
1370.8274609688847
 11
53.605765737817137
 21
1364.7196315806343
  0
LINE
  8
_0-0_
  6
CONTINUOUS
 62
    7
 10
9.133802732539607
 20
1372.8073599562069
 11
9.133802732539607
 21
1402.35611165723
  0
ARC
  8
_0-0_
  6
CONTINUOUS
 62
    7
 10
11.133802732539607
 20
1372.8073599562069
 40
2
 50
180
 51
261.86989764584399
  0
LINE
  8
_0-0_
  6
CONTINUOUS
 62
    7
 10
13.664506346345206
 20
1412.5910135022018
 11
9.133802732539607
 21
1402.35611165723
  0
LINE
  8
_0-0_
  6
CONTINUOUS
 62
    7
 10
15.937405052690337
 20
1413.7315207598365
 11
56.564933904265672
 21
1404.4797544452003
  0
ARC
  8
_0-0_
  6
CONTINUOUS
 62
    7
 10
15.493330522613633
 20
1411.7814443993477
 40
2
 50
77.171280393109441
 51
156.12237326893546
  0
CIRCLE
  8
_0-0_
  6
CONTINUOUS
 62
    7
 10
21.771669979951184
 20
1388.2565815154285
 40
1.25
  0
CIRCLE
  8
_0-0_
  6
CONTINUOUS
 62
    7
 10
57.165568764628006
 20
1381.383979809666
 40
1.25
  0
CIRCLE
  8
_0-0_
  6
CONTINUOUS
 62
    7
 10
67.575128394680632
 20
1141.1464928920332
 40
1.5
  0
CIRCLE
  8
_0-0_
  6
CONTINUOUS
 62
    7
 10
45.426078432376016
 20
1266.7599972650555
 40
1.5
  0
CIRCLE
  8
_0-0_
  6
CONTINUOUS
 62
    7
 10
36.833285452509244
 20
1315.492147871513
 40
1.5
  0
ARC
  8
_0-0_
  6
CONTINUOUS
 62
    7
 10
6.4703359550674122
 20
1180.3810997182006
 40
2
 50
190.00000000000003
 51
280
  0
LINE
  8
_0-0_
  6
CONTINUOUS
 62
    7
 10
21.90878512990821
 20
1181.0724616242499
 11
6.8176323104012226
 21
1178.4114842121762
  0
ARC
  8
_0-0_
  6
CONTINUOUS
 62
    7
 10
21.561488774574286
 20
1183.0420771302743
 40
2
 50
280
 51
359.92742286171563
  0
LINE
  8
_0-0_
  6
CONTINUOUS
 62
    7
 10
-12.52653400609438
 20
1409.0518831045952
 11
-3.6014498348836241
 21
1358.43521550585
  0
ARC
  8
_0-0_
  6
CONTINUOUS
 62
    7
 10
-14.496149512118791
 20
1408.7045867492614
 40
2
 50
10.000000000000004
 51
86.291815962873898
  0
LINE
  8
_0-0_
  6
CONTINUOUS
 62
    7
 10
-33.882932807083534
 20
1411.9652505741647
 11
-14.366799815602008
 21
1410.7003995300629
  0
LINE
  8
_0-0_
  6
CONTINUOUS
 62
    7
 10
-35.981898009624729
 20
1409.6221414380293
 11
4.5007204490430013
 21
1180.0338033628668
  0
ARC
  8
_0-0_
  6
CONTINUOUS
 62
    7
 10
-34.012282503600318
 20
1409.9694377933629
 40
2
 50
86.291815962873969
 51
190.00000000000006
  0
CIRCLE
  8
_0-0_
  6
CONTINUOUS
 62
    7
 10
12.335148715981632
 20
1221.984110012633
 40
1.25
  0
CIRCLE
  8
_0-0_
  6
CONTINUOUS
 62
    7
 10
3.7423557361147459
 20
1270.7162606190905
 40
1.25
  0
CIRCLE
  8
_0-0_
  6
CONTINUOUS
 62
    7
 10
-18.40669422618987
 20
1396.3297649921128
 40
1.25
  0
CIRCLE
  8
_0-0_
  6
CONTINUOUS
 62
    7
 10
-24.753767962423126
 20
1258.1844618847208
 40
1.5
  0
LINE
  8
_0-0_
  6
CONTINUOUS
 62
    7
 10
-29.753767962423126
 20
1241.1844618847208
 11
-29.753767962423126
 21
1278.1844618847208
  0
LINE
  8
_0-0_
  6
CONTINUOUS
 62
    7
 10
-26.753767962423126
 20
1238.1844618847208
 11
-19.753767962423126
 21
1238.1844618847208
  0
ARC
  8
_0-0_
  6
CONTINUOUS
 62
    7
 10
-26.753767962423126
 20
1241.1844618847208
 40
3
 50
180
 51
270
  0
LINE
  8
_0-0_
  6
CONTINUOUS
 62
    7
 10
-19.753767962423126
 20
1275.1844618847208
 11
-19.753767962423126
 21
1238.1844618847208
  0
LINE
  8
_0-0_
  6
CONTINUOUS
 62
    7
 10
-22.753767962423126
 20
1278.1844618847208
 11
-29.753767962423126
 21
1278.1844618847208
  0
ARC
  8
_0-0_
  6
CONTINUOUS
 62
    7
 10
-22.753767962423126
 20
1275.1844618847208
 40
3
 50
0
 51
90
  0
CIRCLE
  8
_0-0_
  6
CONTINUOUS
 62
    7
 10
61.166994163667255
 20
1178.2946153077462
 40
1.5
  0
CIRCLE
  8
_0-0_
  6
CONTINUOUS
 62
    7
 10
44.944838764650399
 20
1211.9015382120706
 40
1.5
  0
CIRCLE
  8
_0-0_
  6
CONTINUOUS
 62
    7
 10
-11.998559995176493
 20
1359.1816425763998
 40
1.25
  0
CIRCLE
  8
_0-0_
  6
CONTINUOUS
 62
    7
 10
4.2235954038403634
 20
1325.5747196720754
 40
1.25
  0
ARC
  8
_0-0_
  6
CONTINUOUS
 62
    7
 10
83.180716672091194
 20
1127.5068200907831
 40
2
 50
266.29181596287378
 51
10.000000000000002
  0
LINE
  8
_0-0_
  6
CONTINUOUS
 62
    7
 10
61.694968174585142
 20
1128.4243747795508
 11
52.7698840033745
 21
1179.041042378296
  0
LINE
  8
_0-0_
  6
CONTINUOUS
 62
    7
 10
63.535233984092883
 20
1126.7758583540831
 11
83.05136697557441
 21
1125.5110073099813
  0
ARC
  8
_0-0_
  6
CONTINUOUS
 62
    7
 10
63.664583680609553
 20
1128.7716711348849
 40
2
 50
190
 51
266.29181596287367
  0
LINE
  8
_0-0_
  6
CONTINUOUS
 62
    7
 10
44.667713719447875
 20
1357.4424545212792
 11
85.150332178115605
 21
1127.8541164461167
  0
ARC
  8
_0-0_
  6
CONTINUOUS
 62
    7
 10
42.698098213423464
 20
1357.0951581659453
 40
2
 50
9.9999999999999893
 51
99.999999999999559
  0
LINE
  8
_0-0_
  6
CONTINUOUS
 62
    7
 10
25.606946998470676
 20
1354.4367141732437
 11
25.529400732986801
 21
1293.2181065252405
  0
LINE
  8
_0-0_
  6
CONTINUOUS
 62
    7
 10
27.259649038582779
 20
1356.4037962598961
 11
42.350801858089653
 21
1359.0647736719698
  0
ARC
  8
_0-0_
  6
CONTINUOUS
 62
    7
 10
27.60694539391659
 20
1354.4341807538717
 40
2
 50
99.999999999999687
 51
179.92742286171566
  0
LINE
  8
_0-0_
  6
CONTINUOUS
 62
    7
 10
3.3934054117991082
 20
1354.6832151881217
 11
-3.6014498348836241
 21
1358.43521550585
  0
LINE
  8
_0-0_
  6
CONTINUOUS
 62
    7
 10
4.4176470153439595
 20
1353.2680507114055
 11
23.639033435503961
 21
1244.2581513589055
  0
ARC
  8
_0-0_
  6
CONTINUOUS
 62
    7
 10
2.4480315093195486
 20
1352.9207543560715
 40
2
 50
9.9999999999999893
 51
61.791145810706162
  0
LINE
  8
_0-0_
  6
CONTINUOUS
 62
    7
 10
44.750787153146916
 20
1184.2082071727405
 11
25.529400732986801
 21
1293.2181065252405
  0
LINE
  8
_0-0_
  6
CONTINUOUS
 62
    7
 10
45.775028756691768
 20
1182.7930426960243
 11
52.7698840033745
 21
1179.041042378296
  0
ARC
  8
_0-0_
  6
CONTINUOUS
 62
    7
 10
46.720402659171327
 20
1184.5555035280745
 40
2
 50
190.00000000000003
 51
241.79114581070615
  0
LINE
  8
_0-0_
  6
CONTINUOUS
 62
    7
 10
-70.214605175069892
 20
1212.828661554468
 11
-54.665284379439981
 21
1209.9636107625604
  0
ARC
  8
_0-0_
  6
CONTINUOUS
 62
    7
 10
-70.30520786763168
 20
1212.3369389170996
 40
0.5
 50
79.560022051715791
 51
180.00000000000006
  0
LINE
  8
_0-0_
  6
CONTINUOUS
 62
    7
 10
-70.482989174935824
 20
1367.5994048137291
 11
-70.482989174935824
 21
1249.5660424382654
  0
ARC
  8
_0-0_
  6
CONTINUOUS
 62
    7
 10
-69.982989174935824
 20
1367.5994048137291
 40
0.5
 50
90
 51
180
  0
LINE
  8
_0-0_
  6
CONTINUOUS
 62
    7
 10
-67.982989174935824
 20
1368.0994048137291
 11
-69.982989174935824
 21
1368.0994048137291
  0
LINE
  8
_0-0_
  6
CONTINUOUS
 62
    7
 10
-67.482989174935824
 20
1367.5994048137291
 11
-67.482989174935824
 21
1363.0994048137291
  0
ARC
  8
_0-0_
  6
CONTINUOUS
 62
    7
 10
-67.982989174935824
 20
1367.5994048137291
 40
0.5
 50
0
 51
90.000000000000014
  0
LINE
  8
_0-0_
  6
CONTINUOUS
 62
    7
 10
115.1178322235512
 20
1170.2893363683866
 11
115.1178322235512
 21
1174.7893363683866
  0
ARC
  8
_0-0_
  6
CONTINUOUS
 62
    7
 10
115.6178322235512
 20
1170.2893363683866
 40
0.5
 50
180
 51
270
  0
LINE
  8
_0-0_
  6
CONTINUOUS
 62
    7
 10
117.6178322235512
 20
1169.7893363683866
 11
115.6178322235512
 21
1169.7893363683866
  0
LINE
  8
_0-0_
  6
CONTINUOUS
 62
    7
 10
118.1178322235512
 20
1170.2893363683866
 11
118.1178322235512
 21
1288.3226987438502
  0
ARC
  8
_0-0_
  6
CONTINUOUS
 62
    7
 10
117.6178322235512
 20
1170.2893363683866
 40
0.5
 50
270
 51
0
  0
LINE
  8
_0-0_
  6
CONTINUOUS
 62
    7
 10
117.84944822368527
 20
1325.0600796276476
 11
102.30012742805525
 21
1327.9251304195552
  0
ARC
  8
_0-0_
  6
CONTINUOUS
 62
    7
 10
117.94005091624706
 20
1325.551802265016
 40
0.5
 50
259.56002205171586
 51
0
  0
LINE
  8
_0-0_
  6
CONTINUOUS
 62
    7
 10
118.1178322235512
 20
1393.3493261558322
 11
118.1178322235512
 21
1398.5773932002887
  0
LINE
  8
_0-0_
  6
CONTINUOUS
 62
    7
 10
117.7733517537585
 20
1392.8741275913098
 11
113.1178322235512
 21
1391.3505030177876
  0
ARC
  8
_0-0_
  6
CONTINUOUS
 62
    7
 10
117.6178322235512
 20
1393.3493261558322
 40
0.5
 50
288.12186024790009
 51
0.0000000000000254
  0
LINE
  8
_0-0_
  6
CONTINUOUS
 62
    7
 10
117.4623126933439
 20
1387.511374336545
 11
113.1178322235512
 21
1386.0895443646129
  0
ARC
  8
_0-0_
  6
CONTINUOUS
 62
    7
 10
117.6178322235512
 20
1387.0361757720225
 40
0.5
 50
0
 51
108.12186024790006
  0
LINE
  8
_0-0_
  6
CONTINUOUS
 62
    7
 10
118.1178322235512
 20
1375.2730659318399
 11
118.1178322235512
 21
1387.0361757720225
  0
LINE
  8
_0-0_
  6
CONTINUOUS
 62
    7
 10
117.77181601433585
 20
1374.7973675061796
 11
76.52435771772798
 21
1361.4455470120756
  0
ARC
  8
_0-0_
  6
CONTINUOUS
 62
    7
 10
117.6178322235512
 20
1375.2730659318399
 40
0.5
 50
287.9367901262051
 51
0
  0
LINE
  8
_0-0_
  6
CONTINUOUS
 62
    7
 10
-70.136972965720474
 20
1163.091373675936
 11
-28.889514669112714
 21
1176.44319417004
  0
ARC
  8
_0-0_
  6
CONTINUOUS
 62
    7
 10
-69.982989174935824
 20
1162.6156752502757
 40
0.5
 50
107.93679012620521
 51
180
  0
LINE
  8
_0-0_
  6
CONTINUOUS
 62
    7
 10
-69.827469644728467
 20
1150.3773668455706
 11
-65.482989174935824
 21
1151.7991968175029
  0
LINE
  8
_0-0_
  6
CONTINUOUS
 62
    7
 10
-70.482989174935824
 20
1150.8525654100931
 11
-70.482989174935824
 21
1162.6156752502757
  0
ARC
  8
_0-0_
  6
CONTINUOUS
 62
    7
 10
-69.982989174935824
 20
1150.8525654100931
 40
0.5
 50
180
 51
288.12186024790242
  0
LINE
  8
_0-0_
  6
CONTINUOUS
 62
    7
 10
-70.482989174935824
 20
1144.5394150262835
 11
-70.482989174935824
 21
1139.3113479818269
  0
LINE
  8
_0-0_
  6
CONTINUOUS
 62
    7
 10
-70.138508705143181
 20
1145.0146135908058
 11
-65.482989174935824
 21
1146.538238164328
  0
ARC
  8
_0-0_
  6
CONTINUOUS
 62
    7
 10
-69.982989174935824
 20
1144.5394150262835
 40
0.5
 50
108.12186024790009
 51
180
  0
LINE
  8
_0-0_
  6
CONTINUOUS
 62
    7
 10
-70.23873017100334
 20
1185.8985204653909
 11
-65.482989174935824
 21
1185.2605552098207
  0
ARC
  8
_0-0_
  6
CONTINUOUS
 62
    7
 10
-70.30520786763168
 20
1185.4029594541612
 40
0.5
 50
82.359593238973304
 51
180
  0
LINE
  8
_0-0_
  6
CONTINUOUS
 62
    7
 10
-70.371685564260019
 20
1188.9432284511017
 11
-65.482989174935824
 21
1188.2874277159483
  0
LINE
  8
_0-0_
  6
CONTINUOUS
 62
    7
 10
-70.80520786763168
 20
1189.4387894623314
 11
-70.80520786763168
 21
1212.3369389170996
  0
ARC
  8
_0-0_
  6
CONTINUOUS
 62
    7
 10
-70.30520786763168
 20
1189.4387894623314
 40
0.5
 50
180
 51
262.35959323897089
  0
LINE
  8
_0-0_
  6
CONTINUOUS
 62
    7
 10
118.00652861287546
 20
1348.9455127310141
 11
113.1178322235512
 21
1349.6013134661673
  0
LINE
  8
_0-0_
  6
CONTINUOUS
 62
    7
 10
118.44005091624706
 20
1348.4499517197844
 11
118.44005091624706
 21
1325.551802265016
  0
ARC
  8
_0-0_
  6
CONTINUOUS
 62
    7
 10
117.94005091624706
 20
1348.4499517197844
 40
0.5
 50
0
 51
82.359593238973332
  0
LINE
  8
_0-0_
  6
CONTINUOUS
 62
    7
 10
117.87357321961866
 20
1351.9902207167252
 11
113.1178322235512
 21
1352.6281859722951
  0
ARC
  8
_0-0_
  6
CONTINUOUS
 62
    7
 10
117.94005091624706
 20
1352.4857817279549
 40
0.5
 50
262.35959323897328
 51
0
  0
LINE
  8
_0-0_
  6
CONTINUOUS
 62
    7
 10
-70.80520786763168
 20
1174.9688448502275
 11
-70.80520786763168
 21
1185.4029594541612
  0
LINE
  8
_0-0_
  6
CONTINUOUS
 62
    7
 10
-70.151224076847029
 20
1174.4931464245672
 11
-50.119396125244975
 21
1180.9774579924524
  0
ARC
  8
_0-0_
  6
CONTINUOUS
 62
    7
 10
-70.30520786763168
 20
1174.9688448502275
 40
0.5
 50
180
 51
287.93679012620476
  0
LINE
  8
_0-0_
  6
CONTINUOUS
 62
    7
 10
117.78606712546241
 20
1363.3955947575485
 11
97.754239173860356
 21
1356.9112831896632
  0
LINE
  8
_0-0_
  6
CONTINUOUS
 62
    7
 10
118.44005091624706
 20
1362.9198963318881
 11
118.44005091624706
 21
1352.4857817279549
  0
ARC
  8
_0-0_
  6
CONTINUOUS
 62
    7
 10
117.94005091624706
 20
1362.9198963318881
 40
0.5
 50
0
 51
107.93679012620476
  0
ENDSEC
  0
EOF
