  0
SECTION
  2
HEADER
  9
$ACADVER
  1
AC1009
  9
$INSBASE
 10
0
 20
0
 30
0
  9
$EXTMIN
 10
0
 20
0
  9
$EXTMAX
 10
210.25
 20
148.625
  9
$LIMMIN
 10
0
 20
0
  9
$LIMMAX
 10
210.25
 20
148.625
  9
$LTSCALE
 40
0.125
  0
ENDSEC
  0
SECTION
  2
TABLES
  0
TABLE
  2
LTYPE
 70
     9
  0
LTYPE
  2
CONTINUOUS
 70
    64
  3
実線
 72
    65
 73
     0
 40
0.0
  0
LTYPE
  2
DASHED1
 70
    64
  3
--  --  --  --  --  --  --  --  
 72
    65
 73
     2
 40
2.5
 49
1.25
 49
-1.25
  0
LTYPE
  2
DASHED2
 70
    64
  3
----    ----    ----    ----    
 72
    65
 73
     2
 40
5.0
 49
2.5
 49
-2.5
  0
LTYPE
  2
DASHED3
 70
    64
  3
------  ------  ------  ------  
 72
    65
 73
     2
 40
5.0
 49
3.75
 49
-1.25
  0
LTYPE
  2
CENTER1
 70
    64
  3
----- - ----- - ----- - ----- - 
 72
    65
 73
     4
 40
10.0
 49
6.25
 49
-1.25
 49
1.25
 49
-1.25
  0
LTYPE
  2
CENTER2
 70
    64
  3
----------  --  ----------  --  
 72
    65
 73
     4
 40
20.0
 49
12.5
 49
-2.5
 49
2.5
 49
-2.5
  0
LTYPE
  2
PHANTOM1
 70
    64
  3
--- - - --- - - --- - - --- - - 
 72
    65
 73
     6
 40
10.0
 49
3.25
 49
-1.25
 49
1.25
 49
-1.25
 49
1.25
 49
-1.25
  0
LTYPE
  2
PHANTOM2
 70
    64
  3
--------  -  -  --------  -  -  
 72
    65
 73
     6
 40
20.0
 49
10.0
 49
-2.5
 49
1.25
 49
-2.5
 49
1.25
 49
-2.5
  0
LTYPE
  2
DOT
 70
    64
  3
-   -   -   -   -   -   -   -   
 72
    65
 73
     2
 40
2.5
 49
0.625
 49
-1.875
  0
LTYPE
  2
DUMMY
 70
    64
  3
ダミー
 72
    65
 73
     0
 40
0.0
  0
LTYPE
  2
RAND1
 70
    64
  3
ランダム線1
 72
    65
 73
     4
 40
10.0
 49
1.0
 49
-2.0
 49
3.0
 49
-4.0
  0
LTYPE
  2
RAND2
 70
    64
  3
ランダム線2
 72
    65
 73
     4
 40
14.0
 49
2.0
 49
-3.0
 49
4.0
 49
-5.0
  0
LTYPE
  2
RAND3
 70
    64
  3
ランダム線3
 72
    65
 73
     4
 40
18.0
 49
3.0
 49
-4.0
 49
5.0
 49
-6.0
  0
LTYPE
  2
RAND4
 70
    64
  3
ランダム線4
 72
    65
 73
     4
 40
22.0
 49
4.0
 49
-5.0
 49
6.0
 49
-7.0
  0
LTYPE
  2
RAND5
 70
    64
  3
ランダム線5
 72
    65
 73
     4
 40
26.0
 49
5.0
 49
-6.0
 49
7.0
 49
-8.0
  0
LTYPE
  2
LONG1
 70
    64
  3
----------  --  ----------  --  
 72
    65
 73
     4
 40
40.0
 49
32.5
 49
-2.5
 49
2.5
 49
-2.5
  0
LTYPE
  2
LONG2
 70
    64
  3
--------  -  -  --------  -  -  
 72
    65
 73
     6
 40
40.0
 49
30.0
 49
-2.5
 49
1.25
 49
-2.5
 49
1.25
 49
-2.5
  0
LTYPE
  2
LONG3
 70
    64
  3
+++++++++++++++..+++++++++++++++
 72
    65
 73
     2
 40
40.0
 49
37.5
 49
-2.5
  0
LTYPE
  2
LONG4
 70
    64
  3
+++++++++++++++..+++++++++++++++
 72
    65
 73
     2
 40
80.0
 49
75.0
 49
-5.0
  0
LTYPE
  2
LONG5
 70
    64
  3
----------  --  ----------  --  
 72
    65
 73
     4
 40
60.0
 49
37.5
 49
-7.5
 49
7.5
 49
-7.5
  0
LTYPE
  2
dashed
 70
   64
  3
-------   -------------   ------
 72
   65
 73
    2
 40
7.5
 49
6
 49
-1.5
  0
LTYPE
  2
dashed_spaced
 70
   64
  3
----        --------        ----
 72
   65
 73
    2
 40
12
 49
6
 49
-6
  0
LTYPE
  2
long_dashed_dotted
 70
   64
  3
------------- --- --------------
 72
   65
 73
    4
 40
15.25
 49
12
 49
-1.5
 49
0.25
 49
-1.5
  0
LTYPE
  2
long_dashed_double-dotted
 70
   64
  3
----------- --- --- ------------
 72
   65
 73
    6
 40
17
 49
12
 49
-1.5
 49
0.25
 49
-1.5
 49
0.25
 49
-1.5
  0
LTYPE
  2
long_dashed_triplicate-dotted
 70
   64
  3
--------- --- --- --- ----------
 72
   65
 73
    8
 40
18.75
 49
12
 49
-1.5
 49
0.25
 49
-1.5
 49
0.25
 49
-1.5
 49
0.25
 49
-1.5
  0
LTYPE
  2
dotted
 70
   64
  3
   -       -       -       -    
 72
   65
 73
    2
 40
1.75
 49
0.25
 49
-1.5
  0
LTYPE
  2
chain
 70
   64
  3
-------------- -- --------------
 72
   65
 73
    4
 40
18.5
 49
12
 49
-1.5
 49
3.5
 49
-1.5
  0
LTYPE
  2
chain_double_dash
 70
   64
  3
------------ -- -- -------------
 72
   65
 73
    6
 40
23.5
 49
12
 49
-1.5
 49
3.5
 49
-1.5
 49
3.5
 49
-1.5
  0
LTYPE
  2
dashed_dotted
 70
   64
  3
-----------     -     ----------
 72
   65
 73
    4
 40
9.25
 49
6
 49
-1.5
 49
0.25
 49
-1.5
  0
LTYPE
  2
double-dashed_dotted
 70
   64
  3
------   -----------   -   -----
 72
   65
 73
    6
 40
16.75
 49
6
 49
-1.5
 49
6
 49
-1.5
 49
0.25
 49
-1.5
  0
LTYPE
  2
dashed_double-dotted
 70
   64
  3
---------    -    -    ---------
 72
   65
 73
    6
 40
11
 49
6
 49
-1.5
 49
0.25
 49
-1.5
 49
0.25
 49
-1.5
  0
LTYPE
  2
double-dashed_double-dotted
 70
   64
  3
-----   ---------   -   -   ----
 72
   65
 73
    8
 40
18.5
 49
6
 49
-1.5
 49
6
 49
-1.5
 49
0.25
 49
-1.5
 49
0.25
 49
-1.5
  0
LTYPE
  2
dashed_triplicate-dotted
 70
   64
  3
-------    -    -    -    ------
 72
   65
 73
    8
 40
12.75
 49
6
 49
-1.5
 49
0.25
 49
-1.5
 49
0.25
 49
-1.5
 49
0.25
 49
-1.5
  0
LTYPE
  2
double-dashed_triplicate-dotted
 70
   64
  3
-----  ---------  -  -  -  -----
 72
   65
 73
   10
 40
20.25
 49
6
 49
-1.5
 49
6
 49
-1.5
 49
0.25
 49
-1.5
 49
0.25
 49
-1.5
 49
0.25
 49
-1.5
  0
LTYPE
  2
undefined
 70
   64
  3
--------------------------------
 72
   65
 73
    0
 40
0
  0
LTYPE
  2
DASH
 70
   64
  3
----        --------        ----
 72
   65
 73
    2
 40
2
 49
1
 49
-1
  0
LTYPE
  2
DOT_18
 70
   64
  3
-               -               
 72
   65
 73
    2
 40
0.51
 49
0.01
 49
-0.5
  0
LTYPE
  2
DASHDOT
 70
   64
  3
--------        -        -------
 72
   65
 73
    4
 40
2.0099999999999998
 49
1
 49
-0.5
 49
0.01
 49
-0.5
  0
LTYPE
  2
DASHDOTDOT
 70
   64
  3
-------      -     -      ------
 72
   65
 73
    6
 40
2.02
 49
1
 49
-0.3499999999999999
 49
0.01
 49
-0.2999999999999999
 49
0.01
 49
-0.3499999999999999
  0
ENDTAB
  0
TABLE
  2
STYLE
  5
3
100
AcDbSymbolTable
 70
     1
  0
STYLE
  5
10
100
AcDbSymbolTableRecord
100
AcDbTextStyleTableRecord
  2
STANDARD
 70
     0
 40
0.0
 41
1.0
 50
0.0
 71
     0
 42
0.2
  3
txt
  4
bigfont.shx
  0
STYLE
  5
26
100
AcDbSymbolTableRecord
100
AcDbTextStyleTableRecord
  2
TATEGAKI
 70
    68
 40
0.0
 41
1.0
 50
0.0
 71
     0
 42
1.0
  3
txt
  4
bigfont.shx
  0
ENDTAB
  0
TABLE
  2
LAYER
 70
    3
  0
LAYER
  2
_0-0_0
 70
   64
 62
    7
  6
CONTINUOUS
  0
LAYER
  2
_0-5_MBend
 70
   64
 62
    7
  6
CONTINUOUS
  0
LAYER
  2
ADD_LINE
 70
   64
 62
    7
  6
CONTINUOUS
  0
ENDTAB
  0
ENDSEC
  0
SECTION
  2
BLOCKS
  0
ENDSEC
  0
SECTION
  2
ENTITIES
  0
CIRCLE
  8
_0-0_0
  6
CONTINUOUS
 62
   18
 10
180.35176626385913
 20
90.455335031691192
 40
1.2499999999999929
  0
CIRCLE
  8
_0-0_0
  6
CONTINUOUS
 62
   18
 10
6.3686144124929314
 20
90.455335031691192
 40
1.25
  0
CIRCLE
  8
_0-0_0
  6
CONTINUOUS
 62
   18
 10
63.360190338176025
 20
129.2027527075812
 40
1.250000000000014
  0
CIRCLE
  8
_0-0_0
  6
CONTINUOUS
 62
   18
 10
123.36019033817603
 20
129.20275270758114
 40
1.250000000000014
  0
CIRCLE
  8
_0-0_0
  6
CONTINUOUS
 62
   18
 10
63.360190338175997
 20
34.602752802948608
 40
1.250000000000014
  0
CIRCLE
  8
_0-0_0
  6
CONTINUOUS
 62
   18
 10
123.36019033817601
 20
34.602752802948565
 40
1.250000000000014
  0
LINE
  8
_0-0_0
  6
CONTINUOUS
 62
   18
 10
36.560190385859684
 20
67.652752755264913
 11
23.560190385859684
 21
67.652752755264956
  0
LINE
  8
_0-0_0
  6
CONTINUOUS
 62
   18
 10
23.560190385859684
 20
67.652752755264956
 11
23.560190385859684
 21
48.152752755264892
  0
LINE
  8
_0-0_0
  6
CONTINUOUS
 62
   18
 10
23.560190385859684
 20
48.152752755264892
 11
36.560190385859656
 21
48.15275275526492
  0
LINE
  8
_0-0_0
  6
CONTINUOUS
 62
   18
 10
36.560190385859656
 20
48.15275275526492
 11
36.560190385859684
 21
67.652752755264913
  0
LINE
  8
_0-0_0
  6
CONTINUOUS
 62
   18
 10
58.060190338176007
 20
109.15275275526491
 11
58.060190338175978
 21
72.652752755264899
  0
LINE
  8
_0-0_0
  6
CONTINUOUS
 62
   18
 10
58.060190338175978
 20
72.652752755264899
 11
77.060190338176
 21
72.652752755264913
  0
LINE
  8
_0-0_0
  6
CONTINUOUS
 62
   18
 10
77.060190338176
 20
72.652752755264913
 11
77.060190338176
 21
73.652752755264899
  0
LINE
  8
_0-0_0
  6
CONTINUOUS
 62
   18
 10
77.060190338176
 20
73.652752755264899
 11
102.66019033817599
 21
73.652752755264885
  0
LINE
  8
_0-0_0
  6
CONTINUOUS
 62
   18
 10
102.66019033817599
 20
73.652752755264885
 11
102.66019033817597
 21
72.652752755264913
  0
LINE
  8
_0-0_0
  6
CONTINUOUS
 62
   18
 10
102.66019033817597
 20
72.652752755264913
 11
128.66019033817599
 21
72.652752755264899
  0
LINE
  8
_0-0_0
  6
CONTINUOUS
 62
   18
 10
128.66019033817599
 20
72.652752755264899
 11
128.66019033817602
 21
109.15275275526494
  0
LINE
  8
_0-0_0
  6
CONTINUOUS
 62
   18
 10
128.66019033817602
 20
109.15275275526494
 11
102.66019033817604
 21
109.15275275526496
  0
LINE
  8
_0-0_0
  6
CONTINUOUS
 62
   18
 10
102.66019033817604
 20
109.15275275526496
 11
102.66019033817602
 21
108.15275275526488
  0
LINE
  8
_0-0_0
  6
CONTINUOUS
 62
   18
 10
102.66019033817602
 20
108.15275275526488
 11
77.060190338176
 21
108.15275275526493
  0
LINE
  8
_0-0_0
  6
CONTINUOUS
 62
   18
 10
77.060190338176
 20
108.15275275526493
 11
77.060190338176
 21
109.15275275526491
  0
LINE
  8
_0-0_0
  6
CONTINUOUS
 62
   18
 10
77.060190338176
 20
109.15275275526491
 11
58.060190338176007
 21
109.15275275526491
  0
CIRCLE
  8
_0-0_0
  6
CONTINUOUS
 62
   18
 10
89.560190338176042
 20
111.1527527552649
 40
1.250000000000028
  0
CIRCLE
  8
_0-0_0
  6
CONTINUOUS
 62
   18
 10
89.560190338176
 20
70.652752755264885
 40
1.2500000000000571
  0
LINE
  8
_0-5_MBend
  6
DASHDOTDOT
 62
   18
 10
50.963743728769252
 20
38.752752779106778
 11
135.75663694758276
 21
38.752752779106764
  0
LINE
  8
_0-5_MBend
  6
DASHDOTDOT
 62
   18
 10
181.37112588143091
 20
110.29350233041552
 11
171.16615323661745
 21
72.209047269083626
  0
LINE
  8
_0-5_MBend
  6
DASHDOTDOT
 62
   18
 10
137.51019031433415
 20
40.402752755264835
 11
137.51019031433412
 21
123.40275275526486
  0
LINE
  8
_0-5_MBend
  6
DASHDOTDOT
 62
   18
 10
5.3492547949210945
 20
110.29350233041558
 11
15.554227439734532
 21
72.209047269083669
  0
LINE
  8
_0-5_MBend
  6
DASHDOTDOT
 62
   18
 10
49.210190362017833
 20
40.40275275526492
 11
49.210190362017791
 21
123.40275275526491
  0
LINE
  8
_0-5_MBend
  6
DASHDOTDOT
 62
   18
 10
50.963743728769238
 20
125.052752731423
 11
135.75663694758271
 21
125.052752731423
  0
LINE
  8
_0-5_MBend
  6
DASHDOTDOT
 62
   18
 10
3.2341903858596908
 20
125.05275273142308
 11
47.456636995266429
 21
125.05275273142306
  0
LINE
  8
_0-5_MBend
  6
DASHDOTDOT
 62
   18
 10
139.26374368108554
 20
125.05275273142306
 11
183.48619029049235
 21
125.05275273142306
  0
LINE
  8
_0-5_MBend
  6
DASHDOTDOT
 62
   18
 10
16.060190385859741
 20
38.752752779106793
 11
47.456636995266386
 21
38.752752779106764
  0
LINE
  8
_0-5_MBend
  6
DASHDOTDOT
 62
   18
 10
139.26374368108557
 20
38.752752779106764
 11
170.6601902904923
 21
38.75275277910675
  0
LINE
  8
_0-0_0
  6
CONTINUOUS
 62
   18
 10
135.86019033817601
 20
123.40275275526491
 11
135.86019033817598
 21
123.90275275526486
  0
LINE
  8
_0-0_0
  6
CONTINUOUS
 62
   18
 10
135.86019033817598
 20
123.90275275526486
 11
135.65308355698946
 21
126.20275270758117
  0
LINE
  8
_0-0_0
  6
CONTINUOUS
 62
   18
 10
51.067297119362543
 20
126.2027527075812
 11
50.860190338176018
 21
123.90275275526488
  0
LINE
  8
_0-0_0
  6
CONTINUOUS
 62
   18
 10
50.860190338176018
 20
123.90275275526488
 11
50.860190338176047
 21
123.40275275526488
  0
LINE
  8
_0-0_0
  6
CONTINUOUS
 62
   18
 10
50.860190338176047
 20
123.40275275526488
 11
47.560190385859705
 21
123.40275275526494
  0
LINE
  8
_0-0_0
  6
CONTINUOUS
 62
   18
 10
47.560190385859705
 20
123.40275275526494
 11
47.560190385859649
 21
123.90275275526494
  0
LINE
  8
_0-0_0
  6
CONTINUOUS
 62
   18
 10
47.560190385859649
 20
123.90275275526494
 11
47.353083604673152
 21
126.2027527075812
  0
LINE
  8
_0-0_0
  6
CONTINUOUS
 62
   18
 10
3.2341903858597192
 20
114.90275275526496
 11
4.2176286692257605
 21
111.23260954057587
  0
ARC
  8
_0-0_0
  6
CONTINUOUS
 62
   18
 10
4.4108134874328186
 20
111.28437464479029
 40
0.2000000000000563
 50
195.00038413514221
 51
285.00038413511078
  0
LINE
  8
_0-0_0
  6
CONTINUOUS
 62
   18
 10
4.4625785916471301
 20
111.0911898265832
 11
6.6842040010279078
 21
111.68648852504806
  0
LINE
  8
_0-0_0
  6
CONTINUOUS
 62
   18
 10
6.6842040010279078
 20
111.68648852504806
 11
6.9430295220997067
 21
110.72056443401299
  0
LINE
  8
_0-0_0
  6
CONTINUOUS
 62
   18
 10
17.148002166913002
 20
72.636109372681048
 11
17.406827687984659
 21
71.670185281645928
  0
LINE
  8
_0-0_0
  6
CONTINUOUS
 62
   18
 10
17.406827687984659
 20
71.670185281645928
 11
15.185202278603938
 21
71.074886583181126
  0
ARC
  8
_0-0_0
  6
CONTINUOUS
 62
   18
 10
15.236967382818236
 20
70.881701764974139
 40
0.1999999999999515
 50
105.0003841351122
 51
195.00038413514076
  0
LINE
  8
_0-0_0
  6
CONTINUOUS
 62
   18
 10
15.043782564611277
 20
70.829936660759756
 11
16.060190385859656
 21
67.036752755264942
  0
LINE
  8
_0-0_0
  6
CONTINUOUS
 62
   18
 10
47.353083604673138
 20
37.602752802948622
 11
47.560190385859691
 21
39.902752755264892
  0
LINE
  8
_0-0_0
  6
CONTINUOUS
 62
   18
 10
47.560190385859691
 20
39.902752755264892
 11
47.560190385859691
 21
40.402752755264892
  0
LINE
  8
_0-0_0
  6
CONTINUOUS
 62
   18
 10
47.560190385859691
 20
40.402752755264892
 11
50.860190338175975
 21
40.402752755264878
  0
LINE
  8
_0-0_0
  6
CONTINUOUS
 62
   18
 10
50.860190338175975
 20
40.402752755264878
 11
50.860190338175975
 21
39.902752755264906
  0
LINE
  8
_0-0_0
  6
CONTINUOUS
 62
   18
 10
50.860190338175975
 20
39.902752755264906
 11
51.067297119362529
 21
37.602752802948636
  0
LINE
  8
_0-0_0
  6
CONTINUOUS
 62
   18
 10
135.65308355698949
 20
37.602752802948594
 11
135.86019033817601
 21
39.902752755264878
  0
LINE
  8
_0-0_0
  6
CONTINUOUS
 62
   18
 10
135.86019033817601
 20
39.902752755264878
 11
135.86019033817598
 21
40.402752755264878
  0
LINE
  8
_0-0_0
  6
CONTINUOUS
 62
   18
 10
135.86019033817598
 20
40.402752755264878
 11
139.1601902904923
 21
40.402752755264849
  0
LINE
  8
_0-0_0
  6
CONTINUOUS
 62
   18
 10
139.1601902904923
 20
40.402752755264849
 11
139.1601902904923
 21
39.902752755264878
  0
LINE
  8
_0-0_0
  6
CONTINUOUS
 62
   18
 10
139.1601902904923
 20
39.902752755264878
 11
139.36729707167885
 21
37.602752802948594
  0
LINE
  8
_0-0_0
  6
CONTINUOUS
 62
   18
 10
170.6601902904923
 20
67.036752755264843
 11
171.6765981117407
 21
70.829936660759728
  0
ARC
  8
_0-0_0
  6
CONTINUOUS
 62
   18
 10
171.48341329353372
 20
70.881701764974068
 40
0.1999999999999546
 50
344.99961586487569
 51
74.999615864874329
  0
LINE
  8
_0-0_0
  6
CONTINUOUS
 62
   18
 10
171.53517839774804
 20
71.074886583181041
 11
169.31355298836726
 21
71.6701852816459
  0
LINE
  8
_0-0_0
  6
CONTINUOUS
 62
   18
 10
169.31355298836726
 20
71.6701852816459
 11
169.57237850943892
 21
72.636109372680977
  0
LINE
  8
_0-0_0
  6
CONTINUOUS
 62
   18
 10
179.7773511542523
 20
110.72056443401291
 11
180.03617667532416
 21
111.68648852504802
  0
LINE
  8
_0-0_0
  6
CONTINUOUS
 62
   18
 10
180.03617667532416
 20
111.68648852504802
 11
182.25780208470485
 21
111.09118982658318
  0
ARC
  8
_0-0_0
  6
CONTINUOUS
 62
   18
 10
182.3095671889192
 20
111.28437464479018
 40
0.1999999999999744
 50
254.99961586487368
 51
344.99961586487916
  0
LINE
  8
_0-0_0
  6
CONTINUOUS
 62
   18
 10
182.50275200712622
 20
111.23260954057584
 11
183.48619029049229
 21
114.90275275526491
  0
LINE
  8
_0-0_0
  6
CONTINUOUS
 62
   18
 10
139.36729707167882
 20
126.2027527075812
 11
139.16019029049227
 21
123.90275275526491
  0
LINE
  8
_0-0_0
  6
CONTINUOUS
 62
   18
 10
139.16019029049227
 20
123.90275275526491
 11
139.1601902904923
 21
123.40275275526486
  0
LINE
  8
_0-0_0
  6
CONTINUOUS
 62
   18
 10
139.1601902904923
 20
123.40275275526486
 11
135.86019033817601
 21
123.40275275526491
  0
LINE
  8
_0-0_0
  6
CONTINUOUS
 62
   18
 10
3.2341903858597192
 20
132.70275270758125
 11
3.2341903858597192
 21
114.90275275526496
  0
ARC
  8
_0-0_0
  6
CONTINUOUS
 62
    7
 10
3.7341903858597192
 20
132.70275270758125
 40
0.5
 50
89.999999999999901
 51
179.99999999999994
  0
LINE
  8
_0-0_0
  6
CONTINUOUS
 62
   18
 10
47.353083604673152
 20
126.2027527075812
 11
40.353083604673088
 21
133.20275270758123
  0
LINE
  8
_0-0_0
  6
CONTINUOUS
 62
    7
 10
3.7341903858597192
 20
133.20275270758125
 11
40.353083604673088
 21
133.20275270758123
  0
LINE
  8
_0-0_0
  6
CONTINUOUS
 62
   18
 10
58.067297119362557
 20
133.20275270758117
 11
51.067297119362543
 21
126.2027527075812
  0
LINE
  8
_0-0_0
  6
CONTINUOUS
 62
   18
 10
135.65308355698946
 20
126.20275270758117
 11
128.65308355698949
 21
133.20275270758117
  0
LINE
  8
_0-0_0
  6
CONTINUOUS
 62
    7
 10
128.65308355698949
 20
133.20275270758117
 11
58.067297119362557
 21
133.20275270758117
  0
LINE
  8
_0-0_0
  6
CONTINUOUS
 62
   18
 10
146.36729707167882
 20
133.20275270758117
 11
139.36729707167882
 21
126.2027527075812
  0
LINE
  8
_0-0_0
  6
CONTINUOUS
 62
   18
 10
183.48619029049229
 20
132.70275270758117
 11
183.48619029049229
 21
114.90275275526491
  0
LINE
  8
_0-0_0
  6
CONTINUOUS
 62
    7
 10
182.98619029049229
 20
133.20275270758117
 11
146.36729707167882
 21
133.20275270758117
  0
ARC
  8
_0-0_0
  6
CONTINUOUS
 62
    7
 10
182.98619029049229
 20
132.70275270758117
 40
0.5
 50
0
 51
90
  0
LINE
  8
_0-0_0
  6
CONTINUOUS
 62
   18
 10
16.060190385859656
 20
31.1027528029487
 11
16.060190385859656
 21
67.036752755264942
  0
ARC
  8
_0-0_0
  6
CONTINUOUS
 62
    7
 10
16.560190385859656
 20
31.1027528029487
 40
0.5
 50
180
 51
269.99999999999983
  0
LINE
  8
_0-0_0
  6
CONTINUOUS
 62
   18
 10
170.66019029049232
 20
31.102752802948565
 11
170.6601902904923
 21
67.036752755264843
  0
ARC
  8
_0-0_0
  6
CONTINUOUS
 62
    7
 10
170.16019029049232
 20
31.102752802948565
 40
0.5
 50
269.99999999999994
 51
0.0000000000000508
  0
LINE
  8
_0-0_0
  6
CONTINUOUS
 62
    7
 10
170.16019029049232
 20
30.602752802948565
 11
146.36729707167882
 21
30.602752802948594
  0
LINE
  8
_0-0_0
  6
CONTINUOUS
 62
   18
 10
139.36729707167885
 20
37.602752802948594
 11
146.36729707167882
 21
30.602752802948594
  0
LINE
  8
_0-0_0
  6
CONTINUOUS
 62
   18
 10
128.65308355698949
 20
30.602752802948579
 11
135.65308355698949
 21
37.602752802948594
  0
LINE
  8
_0-0_0
  6
CONTINUOUS
 62
   18
 10
51.067297119362529
 20
37.602752802948636
 11
58.067297119362607
 21
30.60275280294865
  0
LINE
  8
_0-0_0
  6
CONTINUOUS
 62
    7
 10
58.067297119362607
 20
30.60275280294865
 11
128.65308355698949
 21
30.602752802948579
  0
LINE
  8
_0-0_0
  6
CONTINUOUS
 62
    7
 10
16.560190385859656
 20
30.602752802948693
 11
40.353083604673074
 21
30.602752802948622
  0
LINE
  8
_0-0_0
  6
CONTINUOUS
 62
   18
 10
40.353083604673074
 20
30.602752802948622
 11
47.353083604673138
 21
37.602752802948622
  0
LINE
  8
_0-0_0
  6
CONTINUOUS
 62
   18
 10
-2.0400644784679969
 20
108.31348710038824
 11
6.9430295220997067
 21
110.72056443401299
  0
ARC
  8
_0-0_0
  6
CONTINUOUS
 62
    7
 10
-1.9106517179321685
 20
107.83052505487069
 40
0.5
 50
105.00038413512021
 51
195.0003841351201
  0
LINE
  8
_0-0_0
  6
CONTINUOUS
 62
   18
 10
8.1649081663454695
 20
70.229032039056349
 11
17.148002166913002
 21
72.636109372681048
  0
LINE
  8
_0-0_0
  6
CONTINUOUS
 62
    7
 10
7.5525333602920881
 20
70.582581324038074
 11
-2.3936137634497214
 21
107.70111229433488
  0
ARC
  8
_0-0_0
  6
CONTINUOUS
 62
    7
 10
8.0354954058096411
 20
70.711994084573902
 40
0.5
 50
195.00038413512013
 51
285.00038413512021
  0
LINE
  8
_0-0_0
  6
CONTINUOUS
 62
   18
 10
188.76044515482005
 20
108.31348710038819
 11
179.7773511542523
 21
110.72056443401291
  0
ARC
  8
_0-0_0
  6
CONTINUOUS
 62
    7
 10
188.6310323942842
 20
107.83052505487063
 40
0.5
 50
344.99961586487984
 51
74.999615864879914
  0
LINE
  8
_0-0_0
  6
CONTINUOUS
 62
   18
 10
178.55547251000655
 20
70.229032039056278
 11
169.57237850943892
 21
72.636109372680977
  0
LINE
  8
_0-0_0
  6
CONTINUOUS
 62
    7
 10
179.16784731605992
 20
70.582581324038003
 11
189.11399443980176
 21
107.70111229433481
  0
ARC
  8
_0-0_0
  6
CONTINUOUS
 62
    7
 10
178.6848852705424
 20
70.711994084573831
 40
0.5
 50
254.99961586487998
 51
344.9996158648799
  0
ENDSEC
  0
EOF
