  0
SECTION
  2
HEADER
  9
$ACADVER
  1
AC1009
  9
$INSBASE
 10
0
 20
0
 30
0
  9
$EXTMIN
 10
0
 20
0
  9
$EXTMAX
 10
297.25
 20
210.25
  9
$LIMMIN
 10
0
 20
0
  9
$LIMMAX
 10
297.25
 20
210.25
  9
$LTSCALE
 40
0.125
  0
ENDSEC
  0
SECTION
  2
TABLES
  0
TABLE
  2
LTYPE
 70
     9
  0
LTYPE
  2
CONTINUOUS
 70
    64
  3
実線
 72
    65
 73
     0
 40
0.0
  0
LTYPE
  2
DASHED1
 70
    64
  3
--  --  --  --  --  --  --  --  
 72
    65
 73
     2
 40
2.5
 49
1.25
 49
-1.25
  0
LTYPE
  2
DASHED2
 70
    64
  3
----    ----    ----    ----    
 72
    65
 73
     2
 40
5.0
 49
2.5
 49
-2.5
  0
LTYPE
  2
DASHED3
 70
    64
  3
------  ------  ------  ------  
 72
    65
 73
     2
 40
5.0
 49
3.75
 49
-1.25
  0
LTYPE
  2
CENTER1
 70
    64
  3
----- - ----- - ----- - ----- - 
 72
    65
 73
     4
 40
10.0
 49
6.25
 49
-1.25
 49
1.25
 49
-1.25
  0
LTYPE
  2
CENTER2
 70
    64
  3
----------  --  ----------  --  
 72
    65
 73
     4
 40
20.0
 49
12.5
 49
-2.5
 49
2.5
 49
-2.5
  0
LTYPE
  2
PHANTOM1
 70
    64
  3
--- - - --- - - --- - - --- - - 
 72
    65
 73
     6
 40
10.0
 49
3.25
 49
-1.25
 49
1.25
 49
-1.25
 49
1.25
 49
-1.25
  0
LTYPE
  2
PHANTOM2
 70
    64
  3
--------  -  -  --------  -  -  
 72
    65
 73
     6
 40
20.0
 49
10.0
 49
-2.5
 49
1.25
 49
-2.5
 49
1.25
 49
-2.5
  0
LTYPE
  2
DOT
 70
    64
  3
-   -   -   -   -   -   -   -   
 72
    65
 73
     2
 40
2.5
 49
0.625
 49
-1.875
  0
LTYPE
  2
DUMMY
 70
    64
  3
ダミー
 72
    65
 73
     0
 40
0.0
  0
LTYPE
  2
RAND1
 70
    64
  3
----- - ----- - ----- - ----- - 
 72
    65
 73
     4
 40
10.0
 49
6.25
 49
-1.25
 49
1.25
 49
-1.25
  0
LTYPE
  2
RAND2
 70
    64
  3
----------  --  ----------  --  
 72
    65
 73
     4
 40
20.0
 49
12.5
 49
-2.5
 49
2.5
 49
-2.5
  0
LTYPE
  2
RAND3
 70
    64
  3
--- - - --- - - --- - - --- - - 
 72
    65
 73
     6
 40
10.0
 49
3.25
 49
-1.25
 49
1.25
 49
-1.25
 49
1.25
 49
-1.25
  0
LTYPE
  2
RAND4
 70
    64
  3
--------  -  -  --------  -  -  
 72
    65
 73
     6
 40
20.0
 49
10.0
 49
-2.5
 49
1.25
 49
-2.5
 49
1.25
 49
-2.5
  0
LTYPE
  2
RAND5
 70
    64
  3
----- - ----- - ----- - ----- - 
 72
    65
 73
     4
 40
10.0
 49
6.25
 49
-1.25
 49
1.25
 49
-1.25
  0
LTYPE
  2
LONG1
 70
    64
  3
----------  --  ----------  --  
 72
    65
 73
     4
 40
20.0
 49
12.5
 49
-2.5
 49
2.5
 49
-2.5
  0
LTYPE
  2
LONG2
 70
    64
  3
--- - - --- - - --- - - --- - - 
 72
    65
 73
     6
 40
10.0
 49
3.25
 49
-1.25
 49
1.25
 49
-1.25
 49
1.25
 49
-1.25
  0
LTYPE
  2
LONG3
 70
    64
  3
--------  -  -  --------  -  -  
 72
    65
 73
     6
 40
20.0
 49
10.0
 49
-2.5
 49
1.25
 49
-2.5
 49
1.25
 49
-2.5
  0
LTYPE
  2
LONG4
 70
    64
  3
----- - ----- - ----- - ----- - 
 72
    65
 73
     4
 40
10.0
 49
6.25
 49
-1.25
 49
1.25
 49
-1.25
  0
LTYPE
  2
LONG5
 70
    64
  3
----------  --  ----------  --  
 72
    65
 73
     4
 40
20.0
 49
12.5
 49
-2.5
 49
2.5
 49
-2.5
  0
ENDTAB
  0
TABLE
  2
STYLE
  5
3
100
AcDbSymbolTable
 70
     1
  0
STYLE
  5
10
100
AcDbSymbolTableRecord
100
AcDbTextStyleTableRecord
  2
STANDARD
 70
     0
 40
0.0
 41
1.0
 50
0.0
 71
     0
 42
0.2
  3
txt
  4
bigfont.shx
  0
ENDTAB
  0
TABLE
  2
LAYER
 70
    2
  0
LAYER
  2
_0-0_
 70
   64
 62
    7
  6
CONTINUOUS
  0
LAYER
  2
ADD_LINE
 70
   64
 62
    7
  6
CONTINUOUS
  0
ENDTAB
  0
ENDSEC
  0
SECTION
  2
BLOCKS
  0
ENDSEC
  0
SECTION
  2
ENTITIES
  0
ARC
  8
_0-0_
  6
CONTINUOUS
 62
    7
 10
122.53414
 20
86.156151
 40
4.7619047
 50
270
 51
0
  0
ARC
  8
_0-0_
  6
CONTINUOUS
 62
    7
 10
122.53414
 20
109.04066
 40
4.7619047
 50
0
 51
90
  0
LINE
  8
_0-0_
  6
CONTINUOUS
 62
    7
 10
127.29604
 20
109.04066
 11
127.29604
 21
86.156151
  0
ARC
  8
_0-0_
  6
CONTINUOUS
 62
    7
 10
77.912909
 20
86.156151
 40
4.7619047
 50
180
 51
270
  0
LINE
  8
_0-0_
  6
CONTINUOUS
 62
    7
 10
122.53414
 20
81.394246
 11
77.912909
 21
81.394246
  0
ARC
  8
_0-0_
  6
CONTINUOUS
 62
    7
 10
77.912909
 20
109.04066
 40
4.7619047
 50
90
 51
180
  0
LINE
  8
_0-0_
  6
CONTINUOUS
 62
    7
 10
122.53414
 20
113.80257
 11
77.912909
 21
113.80257
  0
LINE
  8
_0-0_
  6
CONTINUOUS
 62
    7
 10
73.151005
 20
86.156151
 11
73.151005
 21
109.04066
  0
LINE
  8
_0-0_
  6
CONTINUOUS
 62
    7
 10
84.887989
 20
107.63881
 11
84.887989
 21
104.1366
  0
ARC
  8
_0-0_
  6
CONTINUOUS
 62
    7
 10
86.616561
 20
97.50413
 40
10.281044
 50
279.67922
 51
80.320779
  0
LINE
  8
_0-0_
  6
CONTINUOUS
 62
    7
 10
88.345132
 20
107.63881
 11
88.345132
 21
104.1366
  0
ARC
  8
_0-0_
  6
CONTINUOUS
 62
    7
 10
86.616561
 20
97.50413
 40
6.8540304
 50
104.6076
 51
255.39239
  0
ARC
  8
_0-0_
  6
CONTINUOUS
 62
    7
 10
86.616561
 20
97.50413
 40
6.8540304
 50
284.6076
 51
75.392395
  0
ARC
  8
_0-0_
  6
CONTINUOUS
 62
    7
 10
86.616561
 20
97.50413
 40
10.281044
 50
99.67922
 51
260.32077
  0
LINE
  8
_0-0_
  6
CONTINUOUS
 62
    7
 10
84.887989
 20
90.871647
 11
84.887989
 21
87.369446
  0
LINE
  8
_0-0_
  6
CONTINUOUS
 62
    7
 10
88.345132
 20
90.871647
 11
88.345132
 21
87.369446
  0
LINE
  8
_0-0_
  6
CONTINUOUS
 62
    7
 10
100.65259
 20
90.136573
 11
102.02341
 21
90.136573
  0
LINE
  8
_0-0_
  6
CONTINUOUS
 62
    7
 10
106.82128
 20
90.136573
 11
105.45044
 21
90.136573
  0
LINE
  8
_0-0_
  6
CONTINUOUS
 62
    7
 10
100.65259
 20
86.70954
 11
106.82128
 21
86.70954
  0
LINE
  8
_0-0_
  6
CONTINUOUS
 62
    7
 10
105.45044
 20
101.78842
 11
105.45044
 21
90.136573
  0
LINE
  8
_0-0_
  6
CONTINUOUS
 62
    7
 10
102.02341
 20
103.84465
 11
102.02341
 21
90.136573
  0
LINE
  8
_0-0_
  6
CONTINUOUS
 62
    7
 10
100.65259
 20
103.84465
 11
102.02341
 21
103.84465
  0
LINE
  8
_0-0_
  6
CONTINUOUS
 62
    7
 10
111.6191
 20
94.934407
 11
105.45039
 21
107.27168
  0
LINE
  8
_0-0_
  6
CONTINUOUS
 62
    7
 10
111.6191
 20
94.934407
 11
117.78775
 21
107.27168
  0
LINE
  8
_0-0_
  6
CONTINUOUS
 62
    7
 10
110.93368
 20
90.821986
 11
105.45044
 21
101.78842
  0
LINE
  8
_0-0_
  6
CONTINUOUS
 62
    7
 10
110.93368
 20
90.821986
 11
112.30445
 21
90.821986
  0
LINE
  8
_0-0_
  6
CONTINUOUS
 62
    7
 10
100.65259
 20
107.27163
 11
105.45039
 21
107.27163
  0
ARC
  8
_0-0_
  6
CONTINUOUS
 62
    7
 10
100.65259
 20
105.55813
 40
1.7135036
 50
90
 51
270
  0
ARC
  8
_0-0_
  6
CONTINUOUS
 62
    7
 10
100.65259
 20
88.423051
 40
1.7135036
 50
90
 51
270
  0
ARC
  8
_0-0_
  6
CONTINUOUS
 62
    7
 10
106.82128
 20
88.423051
 40
1.7135036
 50
270
 51
90
  0
ARC
  8
_0-0_
  6
CONTINUOUS
 62
    7
 10
122.58556
 20
105.55813
 40
1.7135036
 50
270
 51
90
  0
LINE
  8
_0-0_
  6
CONTINUOUS
 62
    7
 10
117.78775
 20
107.27168
 11
122.58556
 21
107.27164
  0
LINE
  8
_0-0_
  6
CONTINUOUS
 62
    7
 10
112.30445
 20
90.821986
 11
117.78769
 21
101.7884
  0
LINE
  8
_0-0_
  6
CONTINUOUS
 62
    7
 10
117.78769
 20
101.7884
 11
117.78769
 21
90.136573
  0
LINE
  8
_0-0_
  6
CONTINUOUS
 62
    7
 10
116.41687
 20
90.136573
 11
117.7877
 21
90.136573
  0
LINE
  8
_0-0_
  6
CONTINUOUS
 62
    7
 10
122.58556
 20
90.136573
 11
121.21473
 21
90.136573
  0
LINE
  8
_0-0_
  6
CONTINUOUS
 62
    7
 10
116.41687
 20
86.70954
 11
122.58556
 21
86.70954
  0
ARC
  8
_0-0_
  6
CONTINUOUS
 62
    7
 10
116.41687
 20
88.423051
 40
1.7135036
 50
90
 51
270
  0
ARC
  8
_0-0_
  6
CONTINUOUS
 62
    7
 10
122.58556
 20
88.423051
 40
1.7135036
 50
270
 51
90
  0
LINE
  8
_0-0_
  6
CONTINUOUS
 62
    7
 10
122.58556
 20
103.84463
 11
121.21473
 21
103.84463
  0
LINE
  8
_0-0_
  6
CONTINUOUS
 62
    7
 10
121.21473
 20
90.136573
 11
121.21473
 21
103.84463
  0
ENDSEC
  0
EOF
